titredream
version texte cliquez pour télécharger c'est plus lisible!!!!
(renommer le .zip en .txt)

version personnelle permettant de jouer cette chanson à une guitare
désaccorder les 2 cordes grave de deux ton E > D et A > G

commencer sans les basses :

E----------------------------------------------------
B--4---4--3---3---3--1---1--0--1--3---3--------------
G----0------0---0------0------------0----------------
D----------------------------------------------------
G----------------------------------------------------
D----------------------------------------------------

E-------------------------------------1
B--4---4--3---3---3--1---1--0--1--3----
G----0------0---0------0------------0--
D--------------------------------------
G--------------------------------------
D--------------------------------------

E------1------------------------------1--------------
B--4------3---3---3--1---1--0--1--3------------------
G----0------0---0------0------------0----------------
D----------------------------------------------------
G----------------------------------------------------
D----------------------------------------------------

Avec le basse permettant d'être jouée grace au désaccord de corde (sur la version de jeff buckley il ne joue que l'aigu)

E----------------------------------------------------
B--4---4--3---3---3--1---1--0--1--3---3--------------
G----0------0---0------0------------0----------------
D----------------------------------------------------
G----------------------------------------------------
D--3------0-(laisser sonner)-------------------------

Continuer en amenant la variation sur la case 1 de la corde Mi aigu

" don't be like the one…"

E---3----5----5----X---------------------------------
B---3----4----7----8---------------------------------
G---3----5----7----8---------------------------------
D---3----5----7----8---------------------------------
G---0----5-------------------------------------------
D-------------7----8---------------------------------

Retour sur le theme d'intro mais cette fois ci en " bashant " les cordes.
Improvisation sur la corde de B

Entracte instrumentale

E------3-----3---3-----3-----------|----------------------
B--4-----4-----4---4---------------|----------------------
G----0-----0---------0-------0--0--|---0---0--------------
D----------------------------3--3--|---3---5--------------
G--5-------------------------5--5--|---5---7--------------
D----------------------------3--3--|---3---5--------------   X2

E----7-(joué 12 fois !)------|----------
B----5-----------------------|----------
G----5------------------0--0-|--0---0---
D----5------------------3--3-|--3---5---
G----0------------------5--5-|--5---7---
D-----------------------3--3-|--3---5---    X2

Retour à " don't be like the one" deux fois de suite

Ensuite tjs partie intro jouée en accord

Et retour au calme en reprenant le thème d'intro corde à corde pour le final 'i feel afraid and i call your name'
PS : ceci n'est pas forcément la version très exacte jouée par jeff, mais en tt cas elle permet de la jouer et chanter de manière tout à fait valable avec une certaine qualité de guitare.