titremojo
version texte cliquez pour télécharger c'est plus lisible!!!!
(renommer le .zip en .txt)
accordage : 1=E ; 2=B ; 3=G ; 4=D ; 5=A ; 6=D
tempo noire pointée = 118

Intro :

w/clean tone

-----7------|---------|-12--------|-5---------|
-------7----|---------|----12-----|---5-------|
------------|---------|-----------|-----------|
------------|---------|-----------|-----------|
------------|---------|-----------|-----------|
------------|---------|-----------|-----------|

C 5/6 Am C 5/6
w/clean tone
let ring...
----------3--------3------|---------0----------------|----------3--------3------|
------1--------1----------|------1--------1---3-1----|------1--------1----------|
--------2--------2--------|--------2--------2--------|--------2--------2--------|
--------------------------|--------------------------|--------------------------|
----3--------3------------|----0--------0------------|----3--------3------------|
--------------------------|--------------------------|--------------------------|



Am C 5/6 Am

---------0----------------|----------3--------3------|---------0----------------|
------1--------1---3-1----|------1--------1----------|------1--------1---3-1----|
--------2--------2--------|--------2--------2--------|--------2--------2--------|
--------------------------|--------------------------|--------------------------|
----0--------0------------|----3--------3------------|----0--------0------------|
--------------------------|--------------------------|--------------------------|
I'm

Verse :

C 5/6 Am C 5/6

----------3--------3------|---------0----------------|----------3--------3------|
------1--------1----------|------1--------1---3-1----|------1--------1----------|
--------2--------2--------|--------2--------2--------|--------2--------2--------|
--------------------------|--------------------------|--------------------------|
----3--------3------------|----0--------0------------|----3--------3------------|
--------------------------|--------------------------|--------------------------|

ly - in' my bed, the blan - ket is warm, this bo - dy will ne-ver be

Am C 5/6 Am

---------0----------------|----------3--------3------|---------0----------------|
------1--------1---3-1----|------1--------1----------|------1--------1---3-1----|
--------2--------2--------|--------2--------2--------|--------2--------2--------|
--------------------------|--------------------------|--------------------------|
----0--------0------------|----3--------3------------|----0--------0------------|
--------------------------|--------------------------|--------------------------|

saved from harm. Still feel your hair,black rib-bons of coal,

C 5/6
let ring...
----------3--------3------|-----5--------------------|--------------------------|
------1--------1----------|------3-------------------|--------------------------|
--------2--------2--------|-------2------------------|--------------------------|
--------------------------|--------0-----------------|--------------------------|
----3--------3------------|---------0----------------|--------------------------|
--------------------------|----------0---------------|--------------------------|

C 5/6 Am C 5/6 Am
w/backward f/x
-------3--------3-|------0-------------|-------3--------3-|------0--------------|
---1--------1-----|---1--------1---3-1-|---1_-------1-----|---1--------1---3-1--|
-----2--------2---|-----2--------2-----|-----2--------2---|-----2--------2------|
------------------|--------------------|------------------|---------------------|
-3--------3-------|-0--------0---------|-3--------3-------|-0--------0----------|
------------------|--------------------|------------------|---------------------|

Oh, if

C 5/6 Am C 5/6

----------3--------3------|---------0----------------|----------3--------3------|
------1--------1----------|------1--------1---3-1----|------1--------1----------|
--------2--------2--------|--------2--------2--------|--------2--------2--------|
--------------------------|--------------------------|--------------------------|
----3--------3------------|----0--------0------------|----3--------3------------|
--------------------------|--------------------------|--------------------------|

on-ly you'd come back to me if you laid at my side.

Am C 5/6 Am

---------0----------------|----------3--------3------|---------0----------------|
------1--------1---3-1----|------1--------1----------|------1--------1---3-1----|
--------2--------2--------|--------2--------2--------|--------2--------2--------|
--------------------------|--------------------------|--------------------------|
----0--------0------------|----3--------3------------|----0--------0------------|
--------------------------|--------------------------|--------------------------|

Would-n't need no Mo - jo Pin to

C 5/6 D5
rake......| rake........
----------3--------3--5---|--------------------------|---------------0----------|
------1--------1-------3--|--------------------------|-----------------0--------|
--------2--------2------2-|--------------------------|-------------------0------|
--------------------------|--0-----------------------|---------------------3----|
----3--------3------------|--0-----------------------|-----------------------3--|
--------------------------|--0-----------------------|--------------------------|

keep me sa - ti - - - fied.

tempo ralentie noir = 72
chorus

Fmaj9(#11) Am/D
.....|
let ring...
-------------0----------0--0------|----------------------------------------------|
-------------0----------0--0---0--|--0-1------1------1--1--1--1--1----1--1--1--1-|
-------------0----------0--0---0--|--0-2------2------2--2--2--2--2----2--2--2--2-|
------------------------3--3---0--|--0-----0--0------0--0--0--0--0----0--0--0--0-|
------------------3-----3--3---0--|--0-----0-------------------------------------|
--3-------------------------------|--0-----0-------------------------------------|

Don't wan-na weep for you (I) don't wan - na know.

Fmaj9(#11) Am/D Fmaj9(#11)

------0---0-0-0-0----0-0-0---|-0-----0--0-0-0-0-0-0-0---0---|------0----0-0-0-0-0-|
------0---0-0-0-0----0-0-0-0-|-1-----1--1-1-1-1-1-1-1-3-3-0-|------0----0-0-0-0-0-|
-0-0--0---0-0-0-0----0-0-0-0-|-2-----2--2-2-2-2-2-2-2-4-4-0-|-0----0----0-0-0-0-0-|
-3-3--3---3-3-3-3-3--3-3-3-0-|-0-----0--0-0-0-0-0-0-0---0-0-|-3----3----3-3-3-3-3-|
-3----------------3----------|------------------------------|-3-------------------|
-3----------------3----------|------------------------------|-3-------------------|

I'm blind & tor - tured the white hor - ses flow. The me-mo-ries fire, the

Am/D G 6/B Gmaj7/B
let ring..............|
-0---0-----------0-0-0-0-0-0--|--0---0-0-0-0-0-0-0-0-0-0-0----2-------2-----------|
-1---1-----------3-3-3-3-3-3--|--3-1-1-1-1-1-1-1-1-3-3-3-3------3-------3---------|
-2---2---2-2-/-4-4-4-4-4-4-4--|--4-2-2-2-2-2-2-2-2-2-2-2-0--------0-------0-------|
-0---0---0-0-----0-0-0-0-0-0--|--0---0-0-0-0-0-0-0-0-0-0-0----------0-------0-0---|
------------------------------|------------------0-2-2-2-2------------------------|
------------------------------|---------------------------------------------------|

rhy - thms fall slow

Am/D

-0--0-0-0-0-0-0-0--0--0--0--0--0--0--0--|-0----0--0-0-0-0-0--2---2-2-2-2--|--2----|
-1--1-1-1-1-1-1-3--3--3--3--3--3--3--3--|-3--1-1--1-1-1-1-1--1---1-1-1-1--|--1----|
-2--2-2-2-2-2-2-4--4--4--4--4--4--4--4--|-4--2-2--2-2-2-2-2--2---2-2-2-2--|--2----|
-0--0-0-0-0-0-0-0--0--0--0--0--0--0--0--|-0----0--0-0-0-0-0--0---0-0-0-0--|--0----|
-0--------------------------------------|---------------------------------|--0----|
-0--------------------------------------|---------------------------------|--0----|

Black beau - ty, I love you so oh,ah

tempo origin noir pointée = 118

C 5/6 Am C 5/6 Am
w/ad lib. f/x
-------3--------3-|------0-------------|-------3--------3-|------0--------------|
---1--------1-----|---1--------1---3-1-|---1_-------1-----|---1--------1---3-1--|
-----2--------2---|-----2--------2-----|-----2--------2---|-----2--------2------|
------------------|--------------------|------------------|---------------------|
-3--------3-------|-0--------0---------|-3--------3-------|-0--------0----------|
------------------|--------------------|------------------|---------------------|

Am C 5/6 Am

---------0----------------|------------3--------3-------|--------0--------------|
------1--------1---3-1----|--------1--------1-----------|-----1--------1---3-1--|
--------2--------2--------|----------2--------2---------|-------2--------2------|
--------------------------|-----------------------------|-----------------------|
----0--------0------------|------3--------3-------------|---0--------0----------|
--------------------------|-----------------------------|-----------------------|
Oh precious,precious silver&gold and

C 5/6 Am C 5/6

----------3--------3------|---------0----------------|----------3--------3------|
------1--------1----------|------1--------1---3-1----|------1--------1----------|
--------2--------2--------|--------2--------2--------|--------2--------2--------|
--------------------------|--------------------------|--------------------------|
----3--------3------------|----0--------0------------|----3--------3------------|
--------------------------|--------------------------|--------------------------|
pearls in oys - ter's flesh. Drop down we two to

Am C 5/6 Am

---------0----------------|----------3--------3------|---------0----------------|
------1--------1---3-1----|------1--------1----------|------1--------1---3-1----|
--------2--------2--------|--------2--------2--------|--------2--------2--------|
--------------------------|--------------------------|--------------------------|
----0--------0------------|----3--------3------------|----0--------0------------|
--------------------------|--------------------------|--------------------------|

serve and pray to love. Born

C 5/6 Am C 5/6

----------3--------3------|---------0----------------|----------3--------3------|
------1--------1----------|------1--------1---3-1----|------1--------1----------|
--------2--------2--------|--------2--------2--------|--------2--------2--------|
--------------------------|--------------------------|--------------------------|
----3--------3------------|----0--------0------------|----3--------3------------|
--------------------------|--------------------------|--------------------------|

a gain from the the rhy - thm, scream - ing down from

Am C 5/6 Am

---------0----------------|----------3--------3------|---------0----------------|
------1--------1---3-1----|------1--------1----------|------1--------1---3-1----|
--------2--------2--------|--------2--------2--------|--------2--------2--------|
--------------------------|--------------------------|--------------------------|
----0--------0------------|----3--------3------------|----0--------0------------|
--------------------------|--------------------------|--------------------------|

hea - ven. Age - - - less age - - - less,

C 5/6 D5
rake......| rake........
----------3--------3--5---|--------------------------|---------------0----------|
------1--------1-------3--|--------------------------|-----------------0--------|
--------2--------2------2-|--------------------------|-------------------0------|
--------------------------|--0-----------------------|---------------------3----|
----3--------3------------|--0-----------------------|-----------------------3--|
--------------------------|--0-----------------------|--------------------------|

I'm there in your arms

tempo ralentie noir = 72
chorus

Fmaj9(#11) Am/D
.....|
let ring...
-------------0----------0--0------|----------------------------------------------|
-------------0----------0--0---0--|--0-1------1------1--1--1--1--1----1--1--1--1-|
-------------0----------0--0---0--|--0-2------2------2--2--2--2--2----2--2--2--2-|
------------------------3--3---0--|--0-----0--0------0--0--0--0--0----0--0--0--0-|
------------------3-----3--3---0--|--0-----0-------------------------------------|
--3-------------------------------|--0-----0-------------------------------------|

Don't wan-na weep for you (I) don't wan - na know.

Fmaj9(#11) Am/D Fmaj9(#11)

------0---0-0-0-0----0-0-0---|-0-----0--0-0-0-0-0-0-0---0---|------0----0-0-0-0-0-|
------0---0-0-0-0----0-0-0-0-|-1-----1--1-1-1-1-1-1-1-3-3-0-|------0----0-0-0-0-0-|
-0-0--0---0-0-0-0----0-0-0-0-|-2-----2--2-2-2-2-2-2-2-4-4-0-|-0----0----0-0-0-0-0-|
-3-3--3---3-3-3-3-3--3-3-3-0-|-0-----0--0-0-0-0-0-0-0---0-0-|-3----3----3-3-3-3-3-|
-3----------------3----------|------------------------------|-3-------------------|
-3----------------3----------|------------------------------|-3-------------------|

I'm blind & tor - tured the white hor - ses flow. The me-mo-ries fire, the

Am/D G 6/B Gmaj7/B
let ring..............|
-0---0-----------0-0-0-0-0-0--|--0---0-0-0-0-0-0-0-0-0-0-0----2-------2-----------|
-1---1-----------3-3-3-3-3-3--|--3-1-1-1-1-1-1-1-1-3-3-3-3------3-------3---------|
-2---2---2-2-/-4-4-4-4-4-4-4--|--4-2-2-2-2-2-2-2-2-2-2-2-0--------0-------0-------|
-0---0---0-0-----0-0-0-0-0-0--|--0---0-0-0-0-0-0-0-0-0-0-0----------0-------0-0---|
------------------------------|------------------0-2-2-2-2------------------------|
------------------------------|---------------------------------------------------|

rhy - thms fall slow

Am/D

-0--0-0-0-0-0-0-0--0--0--0--0--0--0--0-|-0-0-0-0-0-0-0-0--2---2-2---2-2---2-2--0-0-0|
-1--1-1-1-1-1-1-3--3--3--3--3--3--3--3-|-1-1-1-1-1-1-1-1--1---1-1---1-1---1-1--1-1-1|
-2--2-2-2-2-2-2-4--4--4--4--4--4--4--4-|-2-2-2-2-2-2-2-2--2---2-2---2-2---2-2--2-2-2|
-0--0-0-0-0-0-0-0--0--0--0--0--0--0--0-|-0-0-0-0-0-0-0-0--0---0-0---0-0---0-0--0-0-0|
-0-------------------------------------|--------------------------------------------|
-0-------------------------------------|--------------------------------------------|

Black beau - ty, I love you so

-0-0-0-0--0-0-0-0--0-0-0-0--0--0--0--0--|-0-0-0-0--0-0-0-0--0-0-0-0--0--0--0--0---|
-1-1-1-1--3-3-3-3--6-6-6-6--10-10-10-10-|-1-1-1-1--3-3-3-3--6-6-6-6--9--9--9--9---|
-2-2-2-2--4-4-4-4--7-7-7-7--11-11-11-11-|-2-2-2-2--4-4-4-4--7-7-7-7--10-10-10-10--|
-0-0-0-0--0-0-0-0--0-0-0-0--0--0--0--0--|-0-0-0-0--0-0-0-0--0-0-0-0--0--0--0--0---|
----------------------------------------|-----------------------------------------|
----------------------------------------|-----------------------------------------|


-0-0-0-0--0-0-0-0--0-0-0-0--0--0--0--0---|---0-0-0-0---0-0-0-0---0-0-0-0---------|
-1-1-1-1--3-3-3-3--6-6-6-6--10-10-10-10--|---1-1-1-1---3-3-3-3---6-6-6-6---------|
-2-2-2-2--4-4-4-4--7-7-7-7--11-11-11-11--|---2-2-2-2---4-4-4-4---7-7-7-7---------|
-0-0-0-0--0-0-0-0--0-0-0-0--0--0--0--0---|---0-0-0-0---0-0-0-0---0-0-0-0---------|
-----------------------------------------|---------------------------------------|
-----------------------------------------|---------------------------------------|

Libre

----2------|
----3------|
----2------|
----0------|
-----------|
-----------|

tempo noir pointée = 122

C 5/6 Am C 5/6 Am
w/backward. f/x
-------3--------3-|------0-------------|-------3--------3-|------0--------------|
---1--------1-----|---1--------1---3-1-|---1_-------1-----|---1--------1---3-1--|
-----2--------2---|-----2--------2-----|-----2--------2---|-----2--------2------|
------------------|--------------------|------------------|---------------------|
-3--------3-------|-0--------0---------|-3--------3-------|-0--------0----------|
------------------|--------------------|------------------|---------------------|

Am C 5/6 Am

---------0----------------|------------3--------3---------|------0--------------|
------1--------1---3-1----|--------1--------1-------------|---1--------1---3-1--|
--------2--------2--------|----------2--------2-----------|-----2--------2------|
--------------------------|-------------------------------|---------------------|
----0--------0------------|------3--------3---------------|-0--------0----------|
--------------------------|-------------------------------|---------------------|

Oh, the welts of your scorn my love give me more. Send

C 5/6 Am C 5/6

----------3--------3------|---------0---------------------|----------3--------3-|
------1--------1----------|------1--------1---3-1---------|------1--------1-----|
--------2--------2--------|--------2--------2-------------|--------2--------2---|
--------------------------|-------------------------------|---------------------|
----3--------3------------|----0--------0-----------------|----3--------3-------|
--------------------------|-------------------------------|---------------------|

whips of o -pinion down my back, give me more. Well, it's you I've wait - ed my

Am C 5/6 Am
rake.......|
---------0----------------|----------3--------3--5---|--------------------------|
------1--------1---3-1----|------1--------1-------3--|--------------------------|
--------2--------2--------|--------2--------2------2-|--------------------------|
--------------------------|--------------------------|-0------------------------|
----0--------0------------|----3--------3------------|-0------------------------|
--------------------------|--------------------------|-0------------------------|

life to see, it's you I've searched so hard for.

-0-0-0-0--0-0-0-0--0-0-0-0--0--0--0--0--|-0-0-0-0--0-0-0-0--0-0-0-0--0--0--0--0---|
-1-1-1-1--3-3-3-3--6-6-6-6--10-10-10-10-|-1-1-1-1--3-3-3-3--6-6-6-6--9--9--9--9---|
-2-2-2-2--4-4-4-4--7-7-7-7--11-11-11-11-|-2-2-2-2--4-4-4-4--7-7-7-7--10-10-10-10--|
-0-0-0-0--0-0-0-0--0-0-0-0--0--0--0--0--|-0-0-0-0--0-0-0-0--0-0-0-0--0--0--0--0---|
----------------------------------------|-----------------------------------------|
----------------------------------------|-----------------------------------------|

So

-0000--0-0-0-0--0-0-0-0--0--0--0--0---|---00000-0-0-0---0-0-0-0--|--2-------------|
-1111--3-3-3-3--6-6-6-6--10-10-10-10--|---11113-3-3-3---6-6-6-6--|--3-------------|
-2222--4-4-4-4--7-7-7-7--11-11-11-11--|---22224-4-4-4---7-7-7-7--|--2-------------|
-0000--0-0-0-0--0-0-0-0--0--0--0--0---|---00000-0-0-0---0-0-0-0--|--0-------------|
--------------------------------------|--------------------------|--0-------------|
--------------------------------------|--------------------------|--0-------------|

black, black, black beau - - - ty